ISO-10303-21;
HEADER;
FILE_DESCRIPTION (( 'STEP AP214' ),
    '1' );
FILE_NAME ('0186-2200_240502__Z01-SL-20x2.STEP',
    '2024-02-05T13:06:47',
    ( '' ),
    ( '' ),
    'SwSTEP 2.0',
    'SolidWorks 2023',
    '' );
FILE_SCHEMA (( 'AUTOMOTIVE_DESIGN' ));
ENDSEC;

DATA;
#1 = FILL_AREA_STYLE ('',( #39 ) ) ;
#2 = DIRECTION ( 'NONE',  ( 1.000000000000000000, 0.000000000000000000, 0.000000000000000000 ) ) ;
#3 = AXIS2_PLACEMENT_3D ( 'NONE', #51, #40, #96 ) ;
#4 = VERTEX_POINT ( 'NONE', #43 ) ;
#5 = AXIS2_PLACEMENT_3D ( 'NONE', #62, #118, #73 ) ;
#6 = AXIS2_PLACEMENT_3D ( 'NONE', #125, #21, #117 ) ;
#7 = ADVANCED_FACE ( 'NONE', ( #105 ), #49, .F. ) ;
#8 = PRODUCT_DEFINITION_FORMATION_WITH_SPECIFIED_SOURCE ( 'ANY', '', #34, .NOT_KNOWN. ) ;
#9 = AXIS2_PLACEMENT_3D ( 'NONE', #75, #58, #52 ) ;
#10 = DIRECTION ( 'NONE',  ( -1.000000000000000000, -0.000000000000000000, -0.000000000000000000 ) ) ;
#11 = UNCERTAINTY_MEASURE_WITH_UNIT (LENGTH_MEASURE( 1.000000000000000082E-05 ), #44, 'distance_accuracy_value', 'NONE');
#12 = CARTESIAN_POINT ( 'NONE',  ( 0.000000000000000000, 0.000000000000000000, 0.000000000000000000 ) ) ;
#13 = COLOUR_RGB ( '',0.7529411764705882248, 0.7529411764705882248, 0.7529411764705882248 ) ;
#14 = DIRECTION ( 'NONE',  ( 0.000000000000000000, 0.000000000000000000, 1.000000000000000000 ) ) ;
#15 = CARTESIAN_POINT ( 'NONE',  ( 0.000000000000000000, 0.000000000000000000, 0.000000000000000000 ) ) ;
#16 = PRODUCT_DEFINITION_SHAPE ( 'NONE', 'NONE',  #123 ) ;
#17 = APPLICATION_PROTOCOL_DEFINITION ( 'draft international standard', 'automotive_design', 1998, #121 ) ;
#18 = AXIS2_PLACEMENT_3D ( 'NONE', #95, #41, #27 ) ;
#19 = EDGE_LOOP ( 'NONE', ( #55 ) ) ;
#20 = CONICAL_SURFACE ( 'NONE', #38, 10.00000000000000000, 0.7853981633974300713 ) ;
#21 = DIRECTION ( 'NONE',  ( 1.000000000000000000, 0.000000000000000000, 0.000000000000000000 ) ) ;
#22 = CARTESIAN_POINT ( 'NONE',  ( 250.0000000000000000, 0.000000000000000000, 9.000000000000007105 ) ) ;
#23 = ADVANCED_FACE ( 'NONE', ( #33 ), #24, .F. ) ;
#24 = PLANE ( 'NONE',  #18 ) ;
#25 = DIRECTION ( 'NONE',  ( -1.000000000000000000, -0.000000000000000000, -0.000000000000000000 ) ) ;
#26 = CIRCLE ( 'NONE', #97, 9.000000000000007105 ) ;
#27 = DIRECTION ( 'NONE',  ( -0.000000000000000000, 0.000000000000000000, 1.000000000000000000 ) ) ;
#28 = STYLED_ITEM ( 'NONE', ( #98 ), #84 ) ;
#29 = EDGE_LOOP ( 'NONE', ( #91 ) ) ;
#30 = CARTESIAN_POINT ( 'NONE',  ( 248.9999999999999716, 0.000000000000000000, 0.000000000000000000 ) ) ;
#31 = VERTEX_POINT ( 'NONE', #22 ) ;
#32 = SURFACE_STYLE_USAGE ( .BOTH. , #42 ) ;
#33 = FACE_OUTER_BOUND ( 'NONE', #37, .T. ) ;
#34 = PRODUCT ( '0186-2200_240502__Z01-SL-20x2', '0186-2200_240502__Z01-SL-20x2', '', ( #100 ) ) ;
#35 = CARTESIAN_POINT ( 'NONE',  ( 248.9999999999999716, 0.000000000000000000, 0.000000000000000000 ) ) ;
#36 =( NAMED_UNIT ( * ) PLANE_ANGLE_UNIT ( ) SI_UNIT ( $, .RADIAN. ) );
#37 = EDGE_LOOP ( 'NONE', ( #71 ) ) ;
#38 = AXIS2_PLACEMENT_3D ( 'NONE', #30, #10, #86 ) ;
#39 = FILL_AREA_STYLE_COLOUR ( '', #13 ) ;
#40 = DIRECTION ( 'NONE',  ( 1.000000000000000000, 0.000000000000000000, 0.000000000000000000 ) ) ;
#41 = DIRECTION ( 'NONE',  ( -1.000000000000000000, 0.000000000000000000, -0.000000000000000000 ) ) ;
#42 = SURFACE_SIDE_STYLE ('',( #93 ) ) ;
#43 = CARTESIAN_POINT ( 'NONE',  ( 0.9999999999999991118, 0.000000000000000000, -10.00000000000000000 ) ) ;
#44 =( LENGTH_UNIT ( ) NAMED_UNIT ( * ) SI_UNIT ( .MILLI., .METRE. ) );
#45 = ORIENTED_EDGE ( 'NONE', *, *, #109, .T. ) ;
#46 = EDGE_LOOP ( 'NONE', ( #61 ) ) ;
#47 = CIRCLE ( 'NONE', #54, 8.999999999999980460 ) ;
#48 = FACE_OUTER_BOUND ( 'NONE', #46, .T. ) ;
#49 = PLANE ( 'NONE',  #6 ) ;
#50 = ADVANCED_FACE ( 'NONE', ( #113, #85 ), #124, .T. ) ;
#51 = CARTESIAN_POINT ( 'NONE',  ( 0.9999999999999991118, 0.000000000000000000, 0.000000000000000000 ) ) ;
#52 = DIRECTION ( 'NONE',  ( 0.000000000000000000, 0.000000000000000000, -1.000000000000000000 ) ) ;
#53 = CARTESIAN_POINT ( 'NONE',  ( 248.9999999999999716, 0.000000000000000000, 10.00000000000000000 ) ) ;
#54 = AXIS2_PLACEMENT_3D ( 'NONE', #12, #87, #107 ) ;
#55 = ORIENTED_EDGE ( 'NONE', *, *, #83, .F. ) ;
#56 = DIRECTION ( 'NONE',  ( 0.000000000000000000, 0.000000000000000000, 1.000000000000000000 ) ) ;
#57 = ORIENTED_EDGE ( 'NONE', *, *, #109, .F. ) ;
#58 = DIRECTION ( 'NONE',  ( 1.000000000000000000, 0.000000000000000000, 0.000000000000000000 ) ) ;
#59 = CYLINDRICAL_SURFACE ( 'NONE', #5, 10.00000000000000000 ) ;
#60 = ORIENTED_EDGE ( 'NONE', *, *, #103, .T. ) ;
#61 = ORIENTED_EDGE ( 'NONE', *, *, #64, .F. ) ;
#62 = CARTESIAN_POINT ( 'NONE',  ( 0.000000000000000000, 0.000000000000000000, 0.000000000000000000 ) ) ;
#63 =( LENGTH_UNIT ( ) NAMED_UNIT ( * ) SI_UNIT ( .MILLI., .METRE. ) );
#64 = EDGE_CURVE ( 'NONE', #115, #115, #80, .T. ) ;
#65 =( NAMED_UNIT ( * ) SI_UNIT ( $, .STERADIAN. ) SOLID_ANGLE_UNIT ( ) );
#66 = AXIS2_PLACEMENT_3D ( 'NONE', #35, #25, #67 ) ;
#67 = DIRECTION ( 'NONE',  ( 0.000000000000000000, 0.000000000000000000, 1.000000000000000000 ) ) ;
#68 = ADVANCED_FACE ( 'NONE', ( #74, #110 ), #59, .T. ) ;
#69 = DIRECTION ( 'NONE',  ( 1.000000000000000000, 0.000000000000000000, 0.000000000000000000 ) ) ;
#70 = MECHANICAL_DESIGN_GEOMETRIC_PRESENTATION_REPRESENTATION (  '', ( #28 ), #92 ) ;
#71 = ORIENTED_EDGE ( 'NONE', *, *, #83, .T. ) ;
#72 = ORIENTED_EDGE ( 'NONE', *, *, #103, .F. ) ;
#73 = DIRECTION ( 'NONE',  ( 0.000000000000000000, 0.000000000000000000, 1.000000000000000000 ) ) ;
#74 = FACE_OUTER_BOUND ( 'NONE', #29, .T. ) ;
#75 = CARTESIAN_POINT ( 'NONE',  ( 0.000000000000000000, 0.000000000000000000, 0.000000000000000000 ) ) ;
#76 = VERTEX_POINT ( 'NONE', #111 ) ;
#77 =( GEOMETRIC_REPRESENTATION_CONTEXT ( 3 ) GLOBAL_UNCERTAINTY_ASSIGNED_CONTEXT ( ( #11 ) ) GLOBAL_UNIT_ASSIGNED_CONTEXT ( ( #44, #36, #120 ) ) REPRESENTATION_CONTEXT ( 'NONE', 'WORKASPACE' ) );
#78 = APPLICATION_PROTOCOL_DEFINITION ( 'draft international standard', 'automotive_design', 1998, #94 ) ;
#79 = CLOSED_SHELL ( 'NONE', ( #7, #68, #23, #89, #50 ) ) ;
#80 = CIRCLE ( 'NONE', #66, 10.00000000000000000 ) ;
#81 = EDGE_LOOP ( 'NONE', ( #60 ) ) ;
#82 = CIRCLE ( 'NONE', #3, 10.00000000000000000 ) ;
#83 = EDGE_CURVE ( 'NONE', #31, #31, #26, .T. ) ;
#84 = MANIFOLD_SOLID_BREP ( 'Fase1', #79 ) ;
#85 = FACE_BOUND ( 'NONE', #112, .T. ) ;
#86 = DIRECTION ( 'NONE',  ( 0.000000000000000000, 0.000000000000000000, 1.000000000000000000 ) ) ;
#87 = DIRECTION ( 'NONE',  ( -1.000000000000000000, -0.000000000000000000, -0.000000000000000000 ) ) ;
#88 =( NAMED_UNIT ( * ) PLANE_ANGLE_UNIT ( ) SI_UNIT ( $, .RADIAN. ) );
#89 = ADVANCED_FACE ( 'NONE', ( #108, #48 ), #20, .T. ) ;
#90 = SHAPE_DEFINITION_REPRESENTATION ( #16, #102 ) ;
#91 = ORIENTED_EDGE ( 'NONE', *, *, #64, .T. ) ;
#92 =( GEOMETRIC_REPRESENTATION_CONTEXT ( 3 ) GLOBAL_UNCERTAINTY_ASSIGNED_CONTEXT ( ( #99 ) ) GLOBAL_UNIT_ASSIGNED_CONTEXT ( ( #63, #88, #65 ) ) REPRESENTATION_CONTEXT ( 'NONE', 'WORKASPACE' ) );
#93 = SURFACE_STYLE_FILL_AREA ( #1 ) ;
#94 = APPLICATION_CONTEXT ( 'automotive_design' ) ;
#95 = CARTESIAN_POINT ( 'NONE',  ( 250.0000000000000000, 0.000000000000000000, 0.000000000000000000 ) ) ;
#96 = DIRECTION ( 'NONE',  ( 0.000000000000000000, 0.000000000000000000, -1.000000000000000000 ) ) ;
#97 = AXIS2_PLACEMENT_3D ( 'NONE', #119, #2, #56 ) ;
#98 = PRESENTATION_STYLE_ASSIGNMENT (( #32 ) ) ;
#99 = UNCERTAINTY_MEASURE_WITH_UNIT (LENGTH_MEASURE( 1.000000000000000082E-05 ), #63, 'distance_accuracy_value', 'NONE');
#100 = PRODUCT_CONTEXT ( 'NONE', #121, 'mechanical' ) ;
#101 = PRESENTATION_LAYER_ASSIGNMENT (  '', '', ( #28 ) ) ;
#102 = ADVANCED_BREP_SHAPE_REPRESENTATION ( '0186-2200_240502__Z01-SL-20x2', ( #84, #116 ), #77 ) ;
#103 = EDGE_CURVE ( 'NONE', #4, #4, #82, .T. ) ;
#104 = EDGE_LOOP ( 'NONE', ( #72 ) ) ;
#105 = FACE_OUTER_BOUND ( 'NONE', #122, .T. ) ;
#106 = PRODUCT_DEFINITION_CONTEXT ( 'detailed design', #94, 'design' ) ;
#107 = DIRECTION ( 'NONE',  ( 0.000000000000000000, 0.000000000000000000, -1.000000000000000000 ) ) ;
#108 = FACE_BOUND ( 'NONE', #19, .T. ) ;
#109 = EDGE_CURVE ( 'NONE', #76, #76, #47, .T. ) ;
#110 = FACE_OUTER_BOUND ( 'NONE', #81, .T. ) ;
#111 = CARTESIAN_POINT ( 'NONE',  ( 0.000000000000000000, 0.000000000000000000, -8.999999999999980460 ) ) ;
#112 = EDGE_LOOP ( 'NONE', ( #57 ) ) ;
#113 = FACE_OUTER_BOUND ( 'NONE', #104, .T. ) ;
#114 = PRODUCT_RELATED_PRODUCT_CATEGORY ( 'part', '', ( #34 ) ) ;
#115 = VERTEX_POINT ( 'NONE', #53 ) ;
#116 = AXIS2_PLACEMENT_3D ( 'NONE', #15, #14, #69 ) ;
#117 = DIRECTION ( 'NONE',  ( 0.000000000000000000, 0.000000000000000000, -1.000000000000000000 ) ) ;
#118 = DIRECTION ( 'NONE',  ( -1.000000000000000000, -0.000000000000000000, -0.000000000000000000 ) ) ;
#119 = CARTESIAN_POINT ( 'NONE',  ( 250.0000000000000000, 0.000000000000000000, 0.000000000000000000 ) ) ;
#120 =( NAMED_UNIT ( * ) SI_UNIT ( $, .STERADIAN. ) SOLID_ANGLE_UNIT ( ) );
#121 = APPLICATION_CONTEXT ( 'automotive_design' ) ;
#122 = EDGE_LOOP ( 'NONE', ( #45 ) ) ;
#123 = PRODUCT_DEFINITION ( 'UNKNOWN', '', #8, #106 ) ;
#124 = CONICAL_SURFACE ( 'NONE', #9, 8.999999999999980460, 0.7853981633974587151 ) ;
#125 = CARTESIAN_POINT ( 'NONE',  ( 0.000000000000000000, 0.000000000000000000, 0.000000000000000000 ) ) ;
ENDSEC;
END-ISO-10303-21;
