ISO-10303-21;
HEADER;
FILE_DESCRIPTION (( 'STEP AP214' ),
    '1' );
FILE_NAME ('0186-1812_250311_MS01-20x165.STEP',
    '2025-03-11T14:00:28',
    ( '' ),
    ( '' ),
    'SwSTEP 2.0',
    'SolidWorks 2024',
    '' );
FILE_SCHEMA (( 'AUTOMOTIVE_DESIGN' ));
ENDSEC;

DATA;
#1 = PRESENTATION_LAYER_ASSIGNMENT (  '', '', ( #182 ) ) ;
#2 = CARTESIAN_POINT ( 'NONE',  ( 0.000000000000000000, 0.000000000000000000, -164.5000000000000000 ) ) ;
#3 = CARTESIAN_POINT ( 'NONE',  ( 6.000000000000000888, 0.000000000000000000, -164.0000000000000000 ) ) ;
#4 = EDGE_LOOP ( 'NONE', ( #27 ) ) ;
#5 = ADVANCED_FACE ( 'NONE', ( #232, #220 ), #92, .T. ) ;
#6 = APPLICATION_CONTEXT ( 'automotive_design' ) ;
#7 = AXIS2_PLACEMENT_3D ( 'NONE', #105, #42, #290 ) ;
#8 = VERTEX_POINT ( 'NONE', #170 ) ;
#9 = EDGE_LOOP ( 'NONE', ( #40 ) ) ;
#10 = VERTEX_POINT ( 'NONE', #240 ) ;
#11 =( NAMED_UNIT ( * ) SI_UNIT ( $, .STERADIAN. ) SOLID_ANGLE_UNIT ( ) );
#12 = FACE_OUTER_BOUND ( 'NONE', #119, .T. ) ;
#13 = EDGE_LOOP ( 'NONE', ( #113 ) ) ;
#14 = AXIS2_PLACEMENT_3D ( 'NONE', #47, #191, #272 ) ;
#15 = DIRECTION ( 'NONE',  ( -0.000000000000000000, -0.000000000000000000, 1.000000000000000000 ) ) ;
#16 = PRODUCT_DEFINITION_SHAPE ( 'NONE', 'NONE',  #174 ) ;
#17 =( NAMED_UNIT ( * ) PLANE_ANGLE_UNIT ( ) SI_UNIT ( $, .RADIAN. ) );
#18 = AXIS2_PLACEMENT_3D ( 'NONE', #128, #33, #239 ) ;
#19 =( GEOMETRIC_REPRESENTATION_CONTEXT ( 3 ) GLOBAL_UNCERTAINTY_ASSIGNED_CONTEXT ( ( #79 ) ) GLOBAL_UNIT_ASSIGNED_CONTEXT ( ( #253, #38, #11 ) ) REPRESENTATION_CONTEXT ( 'NONE', 'WORKASPACE' ) );
#20 = SURFACE_STYLE_USAGE ( .BOTH. , #222 ) ;
#21 = EDGE_CURVE ( 'NONE', #8, #8, #247, .T. ) ;
#22 =( NAMED_UNIT ( * ) PLANE_ANGLE_UNIT ( ) SI_UNIT ( $, .RADIAN. ) );
#23 = CIRCLE ( 'NONE', #227, 9.500000000000000000 ) ;
#24 = ORIENTED_EDGE ( 'NONE', *, *, #138, .F. ) ;
#25 = AXIS2_PLACEMENT_3D ( 'NONE', #194, #217, #54 ) ;
#26 =( NAMED_UNIT ( * ) SI_UNIT ( $, .STERADIAN. ) SOLID_ANGLE_UNIT ( ) );
#27 = ORIENTED_EDGE ( 'NONE', *, *, #53, .T. ) ;
#28 = SURFACE_STYLE_FILL_AREA ( #275 ) ;
#29 = DIRECTION ( 'NONE',  ( 0.000000000000000000, 0.000000000000000000, 1.000000000000000000 ) ) ;
#30 = FACE_OUTER_BOUND ( 'NONE', #39, .T. ) ;
#31 = FACE_BOUND ( 'NONE', #218, .T. ) ;
#32 = FILL_AREA_STYLE_COLOUR ( '', #107 ) ;
#33 = DIRECTION ( 'NONE',  ( 0.000000000000000000, 0.000000000000000000, 1.000000000000000000 ) ) ;
#34 = MECHANICAL_DESIGN_GEOMETRIC_PRESENTATION_REPRESENTATION (  '', ( #57 ), #189 ) ;
#35 = CARTESIAN_POINT ( 'NONE',  ( 6.000000000000000888, 0.000000000000000000, -1.000000000000000888 ) ) ;
#36 = EDGE_LOOP ( 'NONE', ( #283 ) ) ;
#37 = ADVANCED_FACE ( 'NONE', ( #219, #12 ), #201, .F. ) ;
#38 =( NAMED_UNIT ( * ) PLANE_ANGLE_UNIT ( ) SI_UNIT ( $, .RADIAN. ) );
#39 = EDGE_LOOP ( 'NONE', ( #199 ) ) ;
#40 = ORIENTED_EDGE ( 'NONE', *, *, #21, .T. ) ;
#41 = SURFACE_STYLE_FILL_AREA ( #183 ) ;
#42 = DIRECTION ( 'NONE',  ( 0.000000000000000000, 0.000000000000000000, -1.000000000000000000 ) ) ;
#43 = DIRECTION ( 'NONE',  ( 1.000000000000000000, 0.000000000000000000, 0.000000000000000000 ) ) ;
#44 = ADVANCED_FACE ( 'NONE', ( #268, #157 ), #153, .F. ) ;
#45 =( LENGTH_UNIT ( ) NAMED_UNIT ( * ) SI_UNIT ( .MILLI., .METRE. ) );
#46 = CARTESIAN_POINT ( 'NONE',  ( 0.000000000000000000, 0.000000000000000000, -164.0000000000000000 ) ) ;
#47 = CARTESIAN_POINT ( 'NONE',  ( 0.000000000000000000, 0.000000000000000000, -30.00000000000000000 ) ) ;
#48 = MECHANICAL_DESIGN_GEOMETRIC_PRESENTATION_REPRESENTATION (  '', ( #238 ), #223 ) ;
#49 = FACE_OUTER_BOUND ( 'NONE', #256, .T. ) ;
#50 = ORIENTED_EDGE ( 'NONE', *, *, #56, .F. ) ;
#51 = FACE_BOUND ( 'NONE', #226, .T. ) ;
#52 = AXIS2_PLACEMENT_3D ( 'NONE', #2, #188, #210 ) ;
#53 = EDGE_CURVE ( 'NONE', #10, #10, #250, .T. ) ;
#54 = DIRECTION ( 'NONE',  ( 1.000000000000000000, 0.000000000000000000, 0.000000000000000000 ) ) ;
#55 = ORIENTED_EDGE ( 'NONE', *, *, #132, .T. ) ;
#56 = EDGE_CURVE ( 'NONE', #58, #58, #116, .T. ) ;
#57 = STYLED_ITEM ( 'NONE', ( #262 ), #37 ) ;
#58 = VERTEX_POINT ( 'NONE', #3 ) ;
#59 = DIRECTION ( 'NONE',  ( -1.000000000000000000, 0.000000000000000000, 0.000000000000000000 ) ) ;
#60 = PLANE ( 'NONE',  #83 ) ;
#61 = EDGE_CURVE ( 'NONE', #172, #172, #71, .T. ) ;
#62 = COLOUR_RGB ( '',0.6313725490196078205, 0.5882352941176470784, 0.5098039215686274161 ) ;
#63 = PRODUCT_DEFINITION_FORMATION_WITH_SPECIFIED_SOURCE ( 'ANY', '', #203, .NOT_KNOWN. ) ;
#64 = CARTESIAN_POINT ( 'NONE',  ( 0.000000000000000000, 0.000000000000000000, -0.3999999999999993006 ) ) ;
#65 = CARTESIAN_POINT ( 'NONE',  ( 0.000000000000000000, 0.000000000000000000, -1.000000000000000888 ) ) ;
#66 = EDGE_CURVE ( 'NONE', #192, #192, #168, .T. ) ;
#67 = FILL_AREA_STYLE ('',( #244 ) ) ;
#68 = CARTESIAN_POINT ( 'NONE',  ( 0.000000000000000000, 0.000000000000000000, -30.00000000000000000 ) ) ;
#69 = PRESENTATION_STYLE_ASSIGNMENT (( #213 ) ) ;
#70 = DIRECTION ( 'NONE',  ( 0.000000000000000000, 0.000000000000000000, 1.000000000000000000 ) ) ;
#71 = CIRCLE ( 'NONE', #135, 9.900000000000000355 ) ;
#72 = FILL_AREA_STYLE_COLOUR ( '', #154 ) ;
#73 = CARTESIAN_POINT ( 'NONE',  ( 0.000000000000000000, 0.000000000000000000, 0.000000000000000000 ) ) ;
#74 = PRESENTATION_LAYER_ASSIGNMENT (  '', '', ( #286 ) ) ;
#75 = FACE_OUTER_BOUND ( 'NONE', #234, .T. ) ;
#76 = PRODUCT_RELATED_PRODUCT_CATEGORY ( 'part', '', ( #203 ) ) ;
#77 = CARTESIAN_POINT ( 'NONE',  ( 10.00000000000000000, 0.000000000000000000, -164.5000000000000000 ) ) ;
#78 = EDGE_LOOP ( 'NONE', ( #173 ) ) ;
#79 = UNCERTAINTY_MEASURE_WITH_UNIT (LENGTH_MEASURE( 1.000000000000000082E-05 ), #253, 'distance_accuracy_value', 'NONE');
#80 = EDGE_LOOP ( 'NONE', ( #298 ) ) ;
#81 = CIRCLE ( 'NONE', #130, 9.900000000000000355 ) ;
#82 = CARTESIAN_POINT ( 'NONE',  ( 7.000000000000007105, 0.000000000000000000, 0.000000000000000000 ) ) ;
#83 = AXIS2_PLACEMENT_3D ( 'NONE', #73, #127, #198 ) ;
#84 = SURFACE_STYLE_FILL_AREA ( #97 ) ;
#85 = DIRECTION ( 'NONE',  ( 0.000000000000000000, 0.000000000000000000, 1.000000000000000000 ) ) ;
#86 = EDGE_LOOP ( 'NONE', ( #141 ) ) ;
#87 = DIRECTION ( 'NONE',  ( -0.000000000000000000, -0.000000000000000000, 1.000000000000000000 ) ) ;
#88 = MANIFOLD_SOLID_BREP ( 'Schnitt-Linear-Austragen-D\X2\00fc\X0\nn1', #216 ) ;
#89 = SHAPE_DEFINITION_REPRESENTATION ( #16, #288 ) ;
#90 = CARTESIAN_POINT ( 'NONE',  ( 0.000000000000000000, 0.000000000000000000, -164.5000000000000000 ) ) ;
#91 = CARTESIAN_POINT ( 'NONE',  ( 0.000000000000000000, 0.000000000000000000, -165.0000000000000000 ) ) ;
#92 = CONICAL_SURFACE ( 'NONE', #98, 9.500000000000008882, 0.7853981633974396193 ) ;
#93 = FACE_OUTER_BOUND ( 'NONE', #195, .T. ) ;
#94 =( GEOMETRIC_REPRESENTATION_CONTEXT ( 3 ) GLOBAL_UNCERTAINTY_ASSIGNED_CONTEXT ( ( #257 ) ) GLOBAL_UNIT_ASSIGNED_CONTEXT ( ( #265, #17, #184 ) ) REPRESENTATION_CONTEXT ( 'NONE', 'WORKASPACE' ) );
#95 = SURFACE_STYLE_USAGE ( .BOTH. , #212 ) ;
#96 = FACE_OUTER_BOUND ( 'NONE', #4, .T. ) ;
#97 = FILL_AREA_STYLE ('',( #32 ) ) ;
#98 = AXIS2_PLACEMENT_3D ( 'NONE', #100, #215, #59 ) ;
#99 = VERTEX_POINT ( 'NONE', #35 ) ;
#100 = CARTESIAN_POINT ( 'NONE',  ( 0.000000000000000000, 0.000000000000000000, 0.000000000000000000 ) ) ;
#101 = CARTESIAN_POINT ( 'NONE',  ( 0.000000000000000000, 0.000000000000000000, -1.000000000000000888 ) ) ;
#102 = ORIENTED_EDGE ( 'NONE', *, *, #242, .T. ) ;
#103 = AXIS2_PLACEMENT_3D ( 'NONE', #90, #136, #224 ) ;
#104 =( NAMED_UNIT ( * ) PLANE_ANGLE_UNIT ( ) SI_UNIT ( $, .RADIAN. ) );
#105 = CARTESIAN_POINT ( 'NONE',  ( 0.000000000000000000, 0.000000000000000000, -164.0000000000000000 ) ) ;
#106 = CARTESIAN_POINT ( 'NONE',  ( 0.000000000000000000, 0.000000000000000000, 0.000000000000000000 ) ) ;
#107 = COLOUR_RGB ( '',0.7529411764705882248, 0.7529411764705882248, 0.000000000000000000 ) ;
#108 = APPLICATION_PROTOCOL_DEFINITION ( 'draft international standard', 'automotive_design', 1998, #6 ) ;
#109 = PRESENTATION_STYLE_ASSIGNMENT (( #20 ) ) ;
#110 = DIRECTION ( 'NONE',  ( -0.000000000000000000, -0.000000000000000000, -1.000000000000000000 ) ) ;
#111 = PRESENTATION_LAYER_ASSIGNMENT (  '', '', ( #57 ) ) ;
#112 =( LENGTH_UNIT ( ) NAMED_UNIT ( * ) SI_UNIT ( .MILLI., .METRE. ) );
#113 = ORIENTED_EDGE ( 'NONE', *, *, #66, .T. ) ;
#114 = ADVANCED_FACE ( 'NONE', ( #30, #49 ), #263, .T. ) ;
#115 = FACE_OUTER_BOUND ( 'NONE', #13, .T. ) ;
#116 = CIRCLE ( 'NONE', #7, 6.000000000000000888 ) ;
#117 = CIRCLE ( 'NONE', #25, 7.000000000000007105 ) ;
#118 = FACE_OUTER_BOUND ( 'NONE', #150, .T. ) ;
#119 = EDGE_LOOP ( 'NONE', ( #148 ) ) ;
#120 = ADVANCED_FACE ( 'NONE', ( #276, #93 ), #274, .T. ) ;
#121 = VERTEX_POINT ( 'NONE', #278 ) ;
#122 = EDGE_LOOP ( 'NONE', ( #237 ) ) ;
#123 = AXIS2_PLACEMENT_3D ( 'NONE', #289, #133, #294 ) ;
#124 = AXIS2_PLACEMENT_3D ( 'NONE', #282, #200, #147 ) ;
#125 =( NAMED_UNIT ( * ) SI_UNIT ( $, .STERADIAN. ) SOLID_ANGLE_UNIT ( ) );
#126 = ORIENTED_EDGE ( 'NONE', *, *, #66, .F. ) ;
#127 = DIRECTION ( 'NONE',  ( 0.000000000000000000, 0.000000000000000000, 1.000000000000000000 ) ) ;
#128 = CARTESIAN_POINT ( 'NONE',  ( 0.000000000000000000, 0.000000000000000000, -30.00000000000000000 ) ) ;
#129 = VERTEX_POINT ( 'NONE', #82 ) ;
#130 = AXIS2_PLACEMENT_3D ( 'NONE', #68, #70, #273 ) ;
#131 = DIRECTION ( 'NONE',  ( -1.000000000000000000, 0.000000000000000000, 0.000000000000000000 ) ) ;
#132 = EDGE_CURVE ( 'NONE', #258, #258, #81, .T. ) ;
#133 = DIRECTION ( 'NONE',  ( 0.000000000000000000, 0.000000000000000000, 1.000000000000000000 ) ) ;
#134 = PRODUCT_DEFINITION_CONTEXT ( 'detailed design', #6, 'design' ) ;
#135 = AXIS2_PLACEMENT_3D ( 'NONE', #64, #87, #131 ) ;
#136 = DIRECTION ( 'NONE',  ( -0.000000000000000000, -0.000000000000000000, 1.000000000000000000 ) ) ;
#137 =( NAMED_UNIT ( * ) SI_UNIT ( $, .STERADIAN. ) SOLID_ANGLE_UNIT ( ) );
#138 = EDGE_CURVE ( 'NONE', #149, #149, #279, .T. ) ;
#139 = SURFACE_STYLE_FILL_AREA ( #225 ) ;
#140 = COLOUR_RGB ( '',1.000000000000000000, 0.9372549019607843146, 0.1372549019607843257 ) ;
#141 = ORIENTED_EDGE ( 'NONE', *, *, #56, .T. ) ;
#142 = DIRECTION ( 'NONE',  ( 1.000000000000000000, 0.000000000000000000, 0.000000000000000000 ) ) ;
#143 = ORIENTED_EDGE ( 'NONE', *, *, #132, .F. ) ;
#144 = CARTESIAN_POINT ( 'NONE',  ( 0.000000000000000000, 0.000000000000000000, -30.00000000000000000 ) ) ;
#145 = MECHANICAL_DESIGN_GEOMETRIC_PRESENTATION_REPRESENTATION (  '', ( #286 ), #94 ) ;
#146 = FACE_BOUND ( 'NONE', #287, .T. ) ;
#147 = DIRECTION ( 'NONE',  ( 1.000000000000000000, 0.000000000000000000, -0.000000000000000000 ) ) ;
#148 = ORIENTED_EDGE ( 'NONE', *, *, #254, .T. ) ;
#149 = VERTEX_POINT ( 'NONE', #236 ) ;
#150 = EDGE_LOOP ( 'NONE', ( #24 ) ) ;
#151 =( NAMED_UNIT ( * ) PLANE_ANGLE_UNIT ( ) SI_UNIT ( $, .RADIAN. ) );
#152 = SURFACE_STYLE_FILL_AREA ( #67 ) ;
#153 = CONICAL_SURFACE ( 'NONE', #269, 6.000000000000000888, 0.7853981633974509435 ) ;
#154 = COLOUR_RGB ( '',0.6313725490196078205, 0.5882352941176470784, 0.5098039215686274161 ) ;
#155 = FILL_AREA_STYLE_COLOUR ( '', #62 ) ;
#156 = SURFACE_STYLE_USAGE ( .BOTH. , #180 ) ;
#157 = FACE_BOUND ( 'NONE', #285, .T. ) ;
#158 = STYLED_ITEM ( 'NONE', ( #205 ), #44 ) ;
#159 = CARTESIAN_POINT ( 'NONE',  ( 0.000000000000000000, 0.000000000000000000, -165.0010000000000048 ) ) ;
#160 = FILL_AREA_STYLE_COLOUR ( '', #140 ) ;
#161 = FACE_OUTER_BOUND ( 'NONE', #9, .T. ) ;
#162 = DIRECTION ( 'NONE',  ( 0.000000000000000000, 0.000000000000000000, 1.000000000000000000 ) ) ;
#163 = COLOUR_RGB ( '',1.000000000000000000, 0.9372549019607843146, 0.1372549019607843257 ) ;
#164 = MECHANICAL_DESIGN_GEOMETRIC_PRESENTATION_REPRESENTATION (  '', ( #182 ), #169 ) ;
#165 = SURFACE_SIDE_STYLE ('',( #28 ) ) ;
#166 = PRESENTATION_STYLE_ASSIGNMENT (( #95 ) ) ;
#167 = DIRECTION ( 'NONE',  ( 0.000000000000000000, 0.000000000000000000, 1.000000000000000000 ) ) ;
#168 = CIRCLE ( 'NONE', #103, 10.00000000000000000 ) ;
#169 =( GEOMETRIC_REPRESENTATION_CONTEXT ( 3 ) GLOBAL_UNCERTAINTY_ASSIGNED_CONTEXT ( ( #179 ) ) GLOBAL_UNIT_ASSIGNED_CONTEXT ( ( #112, #151, #125 ) ) REPRESENTATION_CONTEXT ( 'NONE', 'WORKASPACE' ) );
#170 = CARTESIAN_POINT ( 'NONE',  ( 10.00000000000000000, 0.000000000000000000, -30.00000000000000000 ) ) ;
#171 = CARTESIAN_POINT ( 'NONE',  ( 0.000000000000000000, 0.000000000000000000, -165.0000000000000000 ) ) ;
#172 = VERTEX_POINT ( 'NONE', #233 ) ;
#173 = ORIENTED_EDGE ( 'NONE', *, *, #242, .F. ) ;
#174 = PRODUCT_DEFINITION ( 'UNKNOWN', '', #63, #134 ) ;
#175 =( GEOMETRIC_REPRESENTATION_CONTEXT ( 3 ) GLOBAL_UNCERTAINTY_ASSIGNED_CONTEXT ( ( #206 ) ) GLOBAL_UNIT_ASSIGNED_CONTEXT ( ( #45, #245, #137 ) ) REPRESENTATION_CONTEXT ( 'NONE', 'WORKASPACE' ) );
#176 = DIRECTION ( 'NONE',  ( 1.000000000000000000, 0.000000000000000000, 0.000000000000000000 ) ) ;
#177 = ORIENTED_EDGE ( 'NONE', *, *, #254, .F. ) ;
#178 = DIRECTION ( 'NONE',  ( 0.000000000000000000, 0.000000000000000000, 1.000000000000000000 ) ) ;
#179 = UNCERTAINTY_MEASURE_WITH_UNIT (LENGTH_MEASURE( 1.000000000000000082E-05 ), #112, 'distance_accuracy_value', 'NONE');
#180 = SURFACE_SIDE_STYLE ('',( #152 ) ) ;
#181 = PRESENTATION_LAYER_ASSIGNMENT (  '', '', ( #238 ) ) ;
#182 = STYLED_ITEM ( 'NONE', ( #166 ), #235 ) ;
#183 = FILL_AREA_STYLE ('',( #155 ) ) ;
#184 =( NAMED_UNIT ( * ) SI_UNIT ( $, .STERADIAN. ) SOLID_ANGLE_UNIT ( ) );
#185 = DIRECTION ( 'NONE',  ( -1.000000000000000000, 0.000000000000000000, 0.000000000000000000 ) ) ;
#186 = EDGE_LOOP ( 'NONE', ( #50 ) ) ;
#187 = EDGE_CURVE ( 'NONE', #121, #121, #23, .T. ) ;
#188 = DIRECTION ( 'NONE',  ( -0.000000000000000000, -0.000000000000000000, 1.000000000000000000 ) ) ;
#189 =( GEOMETRIC_REPRESENTATION_CONTEXT ( 3 ) GLOBAL_UNCERTAINTY_ASSIGNED_CONTEXT ( ( #292 ) ) GLOBAL_UNIT_ASSIGNED_CONTEXT ( ( #214, #104, #197 ) ) REPRESENTATION_CONTEXT ( 'NONE', 'WORKASPACE' ) );
#190 = CIRCLE ( 'NONE', #243, 6.000000000000000888 ) ;
#191 = DIRECTION ( 'NONE',  ( -0.000000000000000000, -0.000000000000000000, 1.000000000000000000 ) ) ;
#192 = VERTEX_POINT ( 'NONE', #77 ) ;
#193 = ADVANCED_FACE ( 'NONE', ( #118, #229 ), #260, .F. ) ;
#194 = CARTESIAN_POINT ( 'NONE',  ( 0.000000000000000000, 0.000000000000000000, 0.000000000000000000 ) ) ;
#195 = EDGE_LOOP ( 'NONE', ( #126 ) ) ;
#196 = PLANE ( 'NONE',  #124 ) ;
#197 =( NAMED_UNIT ( * ) SI_UNIT ( $, .STERADIAN. ) SOLID_ANGLE_UNIT ( ) );
#198 = DIRECTION ( 'NONE',  ( 1.000000000000000000, 0.000000000000000000, -0.000000000000000000 ) ) ;
#199 = ORIENTED_EDGE ( 'NONE', *, *, #61, .F. ) ;
#200 = DIRECTION ( 'NONE',  ( 0.000000000000000000, 0.000000000000000000, 1.000000000000000000 ) ) ;
#201 = CYLINDRICAL_SURFACE ( 'NONE', #207, 6.000000000000000888 ) ;
#202 = ORIENTED_EDGE ( 'NONE', *, *, #187, .F. ) ;
#203 = PRODUCT ( '0186-1812_250311_MS01-20x165', '0186-1812_250311_MS01-20x165', '', ( #293 ) ) ;
#204 = APPLICATION_PROTOCOL_DEFINITION ( 'draft international standard', 'automotive_design', 1998, #277 ) ;
#205 = PRESENTATION_STYLE_ASSIGNMENT (( #156 ) ) ;
#206 = UNCERTAINTY_MEASURE_WITH_UNIT (LENGTH_MEASURE( 1.000000000000000082E-05 ), #45, 'distance_accuracy_value', 'NONE');
#207 = AXIS2_PLACEMENT_3D ( 'NONE', #159, #15, #266 ) ;
#208 = DIRECTION ( 'NONE',  ( 1.000000000000000000, 0.000000000000000000, -0.000000000000000000 ) ) ;
#209 = ADVANCED_FACE ( 'NONE', ( #51, #161 ), #230, .T. ) ;
#210 = DIRECTION ( 'NONE',  ( 1.000000000000000000, 0.000000000000000000, 0.000000000000000000 ) ) ;
#211 = EDGE_LOOP ( 'NONE', ( #202 ) ) ;
#212 = SURFACE_SIDE_STYLE ('',( #139 ) ) ;
#213 = SURFACE_STYLE_USAGE ( .BOTH. , #165 ) ;
#214 =( LENGTH_UNIT ( ) NAMED_UNIT ( * ) SI_UNIT ( .MILLI., .METRE. ) );
#215 = DIRECTION ( 'NONE',  ( 0.000000000000000000, 0.000000000000000000, -1.000000000000000000 ) ) ;
#216 = CLOSED_SHELL ( 'NONE', ( #235, #5, #295, #248, #37, #44, #120, #193, #209, #114 ) ) ;
#217 = DIRECTION ( 'NONE',  ( -0.000000000000000000, -0.000000000000000000, -1.000000000000000000 ) ) ;
#218 = EDGE_LOOP ( 'NONE', ( #252 ) ) ;
#219 = FACE_OUTER_BOUND ( 'NONE', #86, .T. ) ;
#220 = FACE_OUTER_BOUND ( 'NONE', #36, .T. ) ;
#221 = PRESENTATION_LAYER_ASSIGNMENT (  '', '', ( #158 ) ) ;
#222 = SURFACE_SIDE_STYLE ('',( #41 ) ) ;
#223 =( GEOMETRIC_REPRESENTATION_CONTEXT ( 3 ) GLOBAL_UNCERTAINTY_ASSIGNED_CONTEXT ( ( #246 ) ) GLOBAL_UNIT_ASSIGNED_CONTEXT ( ( #299, #22, #26 ) ) REPRESENTATION_CONTEXT ( 'NONE', 'WORKASPACE' ) );
#224 = DIRECTION ( 'NONE',  ( 1.000000000000000000, 0.000000000000000000, 0.000000000000000000 ) ) ;
#225 = FILL_AREA_STYLE ('',( #72 ) ) ;
#226 = EDGE_LOOP ( 'NONE', ( #143 ) ) ;
#227 = AXIS2_PLACEMENT_3D ( 'NONE', #251, #110, #142 ) ;
#228 = DIRECTION ( 'NONE',  ( 0.000000000000000000, 0.000000000000000000, -1.000000000000000000 ) ) ;
#229 = FACE_BOUND ( 'NONE', #186, .T. ) ;
#230 = PLANE ( 'NONE',  #291 ) ;
#231 = DIRECTION ( 'NONE',  ( 1.000000000000000000, 0.000000000000000000, 0.000000000000000000 ) ) ;
#232 = FACE_BOUND ( 'NONE', #80, .T. ) ;
#233 = CARTESIAN_POINT ( 'NONE',  ( -9.900000000000000355, 0.000000000000000000, -0.3999999999999993006 ) ) ;
#234 = EDGE_LOOP ( 'NONE', ( #241 ) ) ;
#235 = ADVANCED_FACE ( 'NONE', ( #115, #297 ), #249, .T. ) ;
#236 = CARTESIAN_POINT ( 'NONE',  ( 7.000000000000001776, 0.000000000000000000, -165.0000000000000000 ) ) ;
#237 = ORIENTED_EDGE ( 'NONE', *, *, #21, .F. ) ;
#238 = STYLED_ITEM ( 'NONE', ( #69 ), #193 ) ;
#239 = DIRECTION ( 'NONE',  ( 1.000000000000000000, 0.000000000000000000, 0.000000000000000000 ) ) ;
#240 = CARTESIAN_POINT ( 'NONE',  ( 9.500000000000008882, 0.000000000000000000, 0.000000000000000000 ) ) ;
#241 = ORIENTED_EDGE ( 'NONE', *, *, #187, .T. ) ;
#242 = EDGE_CURVE ( 'NONE', #129, #129, #117, .T. ) ;
#243 = AXIS2_PLACEMENT_3D ( 'NONE', #101, #280, #231 ) ;
#244 = FILL_AREA_STYLE_COLOUR ( '', #163 ) ;
#245 =( NAMED_UNIT ( * ) PLANE_ANGLE_UNIT ( ) SI_UNIT ( $, .RADIAN. ) );
#246 = UNCERTAINTY_MEASURE_WITH_UNIT (LENGTH_MEASURE( 1.000000000000000082E-05 ), #299, 'distance_accuracy_value', 'NONE');
#247 = CIRCLE ( 'NONE', #18, 10.00000000000000000 ) ;
#248 = ADVANCED_FACE ( 'NONE', ( #96, #146 ), #60, .T. ) ;
#249 = CYLINDRICAL_SURFACE ( 'NONE', #270, 10.00000000000000000 ) ;
#250 = CIRCLE ( 'NONE', #123, 9.500000000000008882 ) ;
#251 = CARTESIAN_POINT ( 'NONE',  ( 0.000000000000000000, 0.000000000000000000, -165.0000000000000000 ) ) ;
#252 = ORIENTED_EDGE ( 'NONE', *, *, #138, .T. ) ;
#253 =( LENGTH_UNIT ( ) NAMED_UNIT ( * ) SI_UNIT ( .MILLI., .METRE. ) );
#254 = EDGE_CURVE ( 'NONE', #99, #99, #190, .T. ) ;
#255 = SURFACE_SIDE_STYLE ('',( #84 ) ) ;
#256 = EDGE_LOOP ( 'NONE', ( #55 ) ) ;
#257 = UNCERTAINTY_MEASURE_WITH_UNIT (LENGTH_MEASURE( 1.000000000000000082E-05 ), #265, 'distance_accuracy_value', 'NONE');
#258 = VERTEX_POINT ( 'NONE', #284 ) ;
#259 = MECHANICAL_DESIGN_GEOMETRIC_PRESENTATION_REPRESENTATION (  '', ( #158 ), #175 ) ;
#260 = CONICAL_SURFACE ( 'NONE', #264, 6.000000000000000888, 0.7853981633974482790 ) ;
#261 = AXIS2_PLACEMENT_3D ( 'NONE', #106, #85, #267 ) ;
#262 = PRESENTATION_STYLE_ASSIGNMENT (( #281 ) ) ;
#263 = CYLINDRICAL_SURFACE ( 'NONE', #14, 9.900000000000000355 ) ;
#264 = AXIS2_PLACEMENT_3D ( 'NONE', #46, #228, #185 ) ;
#265 =( LENGTH_UNIT ( ) NAMED_UNIT ( * ) SI_UNIT ( .MILLI., .METRE. ) );
#266 = DIRECTION ( 'NONE',  ( 1.000000000000000000, 0.000000000000000000, 0.000000000000000000 ) ) ;
#267 = DIRECTION ( 'NONE',  ( 1.000000000000000000, 0.000000000000000000, 0.000000000000000000 ) ) ;
#268 = FACE_OUTER_BOUND ( 'NONE', #78, .T. ) ;
#269 = AXIS2_PLACEMENT_3D ( 'NONE', #65, #178, #43 ) ;
#270 = AXIS2_PLACEMENT_3D ( 'NONE', #171, #167, #176 ) ;
#271 = DIRECTION ( 'NONE',  ( 1.000000000000000000, 0.000000000000000000, 0.000000000000000000 ) ) ;
#272 = DIRECTION ( 'NONE',  ( 1.000000000000000000, 0.000000000000000000, 0.000000000000000000 ) ) ;
#273 = DIRECTION ( 'NONE',  ( 1.000000000000000000, 0.000000000000000000, 0.000000000000000000 ) ) ;
#274 = CONICAL_SURFACE ( 'NONE', #52, 10.00000000000000000, 0.7853981633974482790 ) ;
#275 = FILL_AREA_STYLE ('',( #160 ) ) ;
#276 = FACE_BOUND ( 'NONE', #211, .T. ) ;
#277 = APPLICATION_CONTEXT ( 'automotive_design' ) ;
#278 = CARTESIAN_POINT ( 'NONE',  ( 9.500000000000000000, 0.000000000000000000, -165.0000000000000000 ) ) ;
#279 = CIRCLE ( 'NONE', #296, 7.000000000000001776 ) ;
#280 = DIRECTION ( 'NONE',  ( 0.000000000000000000, 0.000000000000000000, 1.000000000000000000 ) ) ;
#281 = SURFACE_STYLE_USAGE ( .BOTH. , #255 ) ;
#282 = CARTESIAN_POINT ( 'NONE',  ( 0.000000000000000000, 0.000000000000000000, -165.0000000000000000 ) ) ;
#283 = ORIENTED_EDGE ( 'NONE', *, *, #61, .T. ) ;
#284 = CARTESIAN_POINT ( 'NONE',  ( 9.900000000000000355, 0.000000000000000000, -30.00000000000000000 ) ) ;
#285 = EDGE_LOOP ( 'NONE', ( #177 ) ) ;
#286 = STYLED_ITEM ( 'NONE', ( #109 ), #88 ) ;
#287 = EDGE_LOOP ( 'NONE', ( #102 ) ) ;
#288 = ADVANCED_BREP_SHAPE_REPRESENTATION ( '0186-1812_250311_MS01-20x165', ( #88, #261 ), #19 ) ;
#289 = CARTESIAN_POINT ( 'NONE',  ( 0.000000000000000000, 0.000000000000000000, 0.000000000000000000 ) ) ;
#290 = DIRECTION ( 'NONE',  ( 1.000000000000000000, 0.000000000000000000, 0.000000000000000000 ) ) ;
#291 = AXIS2_PLACEMENT_3D ( 'NONE', #144, #29, #208 ) ;
#292 = UNCERTAINTY_MEASURE_WITH_UNIT (LENGTH_MEASURE( 1.000000000000000082E-05 ), #214, 'distance_accuracy_value', 'NONE');
#293 = PRODUCT_CONTEXT ( 'NONE', #277, 'mechanical' ) ;
#294 = DIRECTION ( 'NONE',  ( 1.000000000000000000, 0.000000000000000000, 0.000000000000000000 ) ) ;
#295 = ADVANCED_FACE ( 'NONE', ( #31, #75 ), #196, .F. ) ;
#296 = AXIS2_PLACEMENT_3D ( 'NONE', #91, #162, #271 ) ;
#297 = FACE_OUTER_BOUND ( 'NONE', #122, .T. ) ;
#298 = ORIENTED_EDGE ( 'NONE', *, *, #53, .F. ) ;
#299 =( LENGTH_UNIT ( ) NAMED_UNIT ( * ) SI_UNIT ( .MILLI., .METRE. ) );
ENDSEC;
END-ISO-10303-21;
